  0
SECTION
  2
HEADER
  9
$ACADVER
  1
AC1015
  9
$ACADMAINTVER
 70
     6
  9
$DWGCODEPAGE
  3
ANSI_1254
  9
$INSBASE
 10
0.0
 20
0.0
 30
0.0
  9
$EXTMIN
 10
0.0
 20
0.0
 30
0.0
  9
$EXTMAX
 10
279.4
 20
215.9
 30
0.0
  9
$LIMMIN
 10
0.0
 20
0.0
  9
$LIMMAX
 10
279.4
 20
215.9
  9
$ORTHOMODE
 70
     0
  9
$REGENMODE
 70
     1
  9
$FILLMODE
 70
     1
  9
$QTEXTMODE
 70
     0
  9
$MIRRTEXT
 70
     1
  9
$LTSCALE
 40
1.0
  9
$ATTMODE
 70
     1
  9
$TEXTSIZE
 40
3.5
  9
$TRACEWID
 40
1.0
  9
$TEXTSTYLE
  7
Standard
  9
$CLAYER
  8
0
  9
$CELTYPE
  6
ByLayer
  9
$CECOLOR
 62
   256
  9
$CELTSCALE
 40
1.0
  9
$DISPSILH
 70
     0
  9
$DIMSCALE
 40
1.0
  9
$DIMASZ
 40
3.5
  9
$DIMEXO
 40
1.0
  9
$DIMDLI
 40
3.75
  9
$DIMRND
 40
0.0
  9
$DIMDLE
 40
0.0
  9
$DIMEXE
 40
1.0
  9
$DIMTP
 40
0.0
  9
$DIMTM
 40
0.0
  9
$DIMTXT
 40
3.5
  9
$DIMCEN
 40
2.5
  9
$DIMTSZ
 40
0.0
  9
$DIMTOL
 70
     0
  9
$DIMLIM
 70
     0
  9
$DIMTIH
 70
     1
  9
$DIMTOH
 70
     1
  9
$DIMSE1
 70
     0
  9
$DIMSE2
 70
     0
  9
$DIMTAD
 70
     1
  9
$DIMZIN
 70
     0
  9
$DIMBLK
  1

  9
$DIMASO
 70
     1
  9
$DIMSHO
 70
     1
  9
$DIMPOST
  1

  9
$DIMAPOST
  1

  9
$DIMALT
 70
     0
  9
$DIMALTD
 70
     3
  9
$DIMALTF
 40
0.0393700787
  9
$DIMLFAC
 40
1.0
  9
$DIMTOFL
 70
     1
  9
$DIMTVP
 40
0.0
  9
$DIMTIX
 70
     0
  9
$DIMSOXD
 70
     0
  9
$DIMSAH
 70
     0
  9
$DIMBLK1
  1

  9
$DIMBLK2
  1

  9
$DIMSTYLE
  2
ISO-25
  9
$DIMCLRD
 70
     0
  9
$DIMCLRE
 70
     0
  9
$DIMCLRT
 70
     0
  9
$DIMTFAC
 40
1.0
  9
$DIMGAP
 40
1.524
  9
$DIMJUST
 70
     0
  9
$DIMSD1
 70
     0
  9
$DIMSD2
 70
     0
  9
$DIMTOLJ
 70
     0
  9
$DIMTZIN
 70
     0
  9
$DIMALTZ
 70
     0
  9
$DIMALTTZ
 70
     0
  9
$DIMUPT
 70
     0
  9
$DIMDEC
 70
     2
  9
$DIMTDEC
 70
     2
  9
$DIMALTU
 70
     2
  9
$DIMALTTD
 70
     3
  9
$DIMTXSTY
  7
Standard
  9
$DIMAUNIT
 70
     0
  9
$DIMADEC
 70
     2
  9
$DIMALTRND
 40
0.0
  9
$DIMAZIN
 70
     0
  9
$DIMDSEP
 70
    44
  9
$DIMATFIT
 70
     3
  9
$DIMFRAC
 70
     0
  9
$DIMLDRBLK
  1

  9
$DIMLUNIT
 70
     2
  9
$DIMLWD
 70
    -2
  9
$DIMLWE
 70
    -2
  9
$DIMTMOVE
 70
     0
  9
$LUNITS
 70
     2
  9
$LUPREC
 70
     2
  9
$SKETCHINC
 40
1.0
  9
$FILLETRAD
 40
10.0
  9
$AUNITS
 70
     0
  9
$AUPREC
 70
     2
  9
$MENU
  1
.
  9
$ELEVATION
 40
0.0
  9
$PELEVATION
 40
0.0
  9
$THICKNESS
 40
0.0
  9
$LIMCHECK
 70
     0
  9
$CHAMFERA
 40
0.0
  9
$CHAMFERB
 40
0.0
  9
$CHAMFERC
 40
0.0
  9
$CHAMFERD
 40
0.0
  9
$SKPOLY
 70
     0
  9
$TDCREATE
 40
2459935.699274803
  9
$TDUCREATE
 40
2459935.574274803
  9
$TDUPDATE
 40
2459935.699274988
  9
$TDUUPDATE
 40
2459935.574274988
  9
$TDINDWG
 40
0.0000000116
  9
$TDUSRTIMER
 40
0.0000000116
  9
$USRTIMER
 70
     1
  9
$ANGBASE
 50
0.0
  9
$ANGDIR
 70
     0
  9
$PDMODE
 70
     0
  9
$PDSIZE
 40
-1.0
  9
$PLINEWID
 40
0.0
  9
$SPLFRAME
 70
     0
  9
$SPLINETYPE
 70
     6
  9
$SPLINESEGS
 70
     8
  9
$HANDSEED
  5
ED
  9
$SURFTAB1
 70
     6
  9
$SURFTAB2
 70
     6
  9
$SURFTYPE
 70
     6
  9
$SURFU
 70
     6
  9
$SURFV
 70
     6
  9
$UCSBASE
  2

  9
$UCSNAME
  2

  9
$UCSORG
 10
0.0
 20
0.0
 30
0.0
  9
$UCSXDIR
 10
1.0
 20
0.0
 30
0.0
  9
$UCSYDIR
 10
0.0
 20
1.0
 30
0.0
  9
$UCSORTHOREF
  2

  9
$UCSORTHOVIEW
 70
     0
  9
$UCSORGTOP
 10
0.0
 20
0.0
 30
0.0
  9
$UCSORGBOTTOM
 10
0.0
 20
0.0
 30
0.0
  9
$UCSORGLEFT
 10
0.0
 20
0.0
 30
0.0
  9
$UCSORGRIGHT
 10
0.0
 20
0.0
 30
0.0
  9
$UCSORGFRONT
 10
0.0
 20
0.0
 30
0.0
  9
$UCSORGBACK
 10
0.0
 20
0.0
 30
0.0
  9
$PUCSBASE
  2

  9
$PUCSNAME
  2

  9
$PUCSORG
 10
0.0
 20
0.0
 30
0.0
  9
$PUCSXDIR
 10
1.0
 20
0.0
 30
0.0
  9
$PUCSYDIR
 10
0.0
 20
1.0
 30
0.0
  9
$PUCSORTHOREF
  2

  9
$PUCSORTHOVIEW
 70
     0
  9
$PUCSORGTOP
 10
0.0
 20
0.0
 30
0.0
  9
$PUCSORGBOTTOM
 10
0.0
 20
0.0
 30
0.0
  9
$PUCSORGLEFT
 10
0.0
 20
0.0
 30
0.0
  9
$PUCSORGRIGHT
 10
0.0
 20
0.0
 30
0.0
  9
$PUCSORGFRONT
 10
0.0
 20
0.0
 30
0.0
  9
$PUCSORGBACK
 10
0.0
 20
0.0
 30
0.0
  9
$USERI1
 70
     0
  9
$USERI2
 70
     0
  9
$USERI3
 70
     0
  9
$USERI4
 70
     0
  9
$USERI5
 70
     0
  9
$USERR1
 40
0.0
  9
$USERR2
 40
0.0
  9
$USERR3
 40
0.0
  9
$USERR4
 40
0.0
  9
$USERR5
 40
0.0
  9
$WORLDVIEW
 70
     1
  9
$SHADEDGE
 70
     3
  9
$SHADEDIF
 70
    70
  9
$TILEMODE
 70
     1
  9
$MAXACTVP
 70
    64
  9
$PINSBASE
 10
0.0
 20
0.0
 30
0.0
  9
$PLIMCHECK
 70
     0
  9
$PEXTMIN
 10
1.0000000000E+20
 20
1.0000000000E+20
 30
1.0000000000E+20
  9
$PEXTMAX
 10
-1.0000000000E+20
 20
-1.0000000000E+20
 30
-1.0000000000E+20
  9
$PLIMMIN
 10
0.0
 20
0.0
  9
$PLIMMAX
 10
420.0
 20
297.0
  9
$UNITMODE
 70
     0
  9
$VISRETAIN
 70
     1
  9
$PLINEGEN
 70
     0
  9
$PSLTSCALE
 70
     1
  9
$TREEDEPTH
 70
  3020
  9
$CMLSTYLE
  2
Standard
  9
$CMLJUST
 70
     0
  9
$CMLSCALE
 40
20.0
  9
$PROXYGRAPHICS
 70
     1
  9
$MEASUREMENT
 70
     1
  9
$CELWEIGHT
370
    -1
  9
$ENDCAPS
280
     0
  9
$JOINSTYLE
280
     0
  9
$LWDISPLAY
290
     1
  9
$INSUNITS
 70
     4
  9
$HYPERLINKBASE
  1

  9
$STYLESHEET
  1

  9
$XEDIT
290
     1
  9
$CEPSNTYPE
380
     0
  9
$PSTYLEMODE
290
     1
  9
$FINGERPRINTGUID
  2
{e41110cf-5885-43c2-aa8f-96003fec2540}
  9
$VERSIONGUID
  2
{FAEB1C32-E019-11D5-929B-00C0DF256EC4}
  9
$EXTNAMES
290
     1
  9
$PSVPSCALE
 40
0.0
  9
$OLESTARTUP
290
     0
  0
ENDSEC
  0
SECTION
  2
CLASSES
  0
CLASS
  1
ACDBDICTIONARYWDFLT
  2
AcDbDictionaryWithDefault
  3
ObjectDBX Classes
 90
        0
280
     0
281
     0
  0
CLASS
  1
VISUALSTYLE
  2
AcDbVisualStyle
  3
ObjectDBX Classes
 90
     4095
280
     0
281
     0
  0
CLASS
  1
MATERIAL
  2
AcDbMaterial
  3
ObjectDBX Classes
 90
     1153
280
     0
281
     0
  0
CLASS
  1
SCALE
  2
AcDbScale
  3
ObjectDBX Classes
 90
     1153
280
     0
281
     0
  0
CLASS
  1
TABLESTYLE
  2
AcDbTableStyle
  3
ObjectDBX Classes
 90
     4095
280
     0
281
     0
  0
CLASS
  1
MLEADERSTYLE
  2
AcDbMLeaderStyle
  3
ACDB_MLEADERSTYLE_CLASS
 90
     4095
280
     0
281
     0
  0
CLASS
  1
SUN
  2
AcDbSun
  3
SCENEOE
 90
     1153
280
     0
281
     0
  0
CLASS
  1
ACDBPLACEHOLDER
  2
AcDbPlaceHolder
  3
ObjectDBX Classes
 90
        0
280
     0
281
     0
  0
CLASS
  1
LAYOUT
  2
AcDbLayout
  3
ObjectDBX Classes
 90
        0
280
     0
281
     0
  0
ENDSEC
  0
SECTION
  2
TABLES
  0
TABLE
  2
VPORT
  5
8
330
0
100
AcDbSymbolTable
 70
     1
  0
VPORT
  5
29
330
8
100
AcDbSymbolTableRecord
100
AcDbViewportTableRecord
  2
*Active
 70
     0
 10
0.0
 20
0.0
 11
1.0
 21
1.0
 12
139.7
 22
107.95
 13
0.0
 23
0.0
 14
10.0
 24
10.0
 15
10.0
 25
10.0
 16
0.0
 26
0.0
 36
1.0
 17
0.0
 27
0.0
 37
0.0
 40
215.9
 41
1.2941176471
 42
50.0
 43
0.0
 44
0.0
 50
0.0
 51
0.0
 71
     0
 72
  2000
 73
     1
 74
     3
 75
     0
 76
     0
 77
     0
 78
     0
281
     0
 65
     1
110
0.0
120
0.0
130
0.0
111
1.0
121
0.0
131
0.0
112
0.0
122
1.0
132
0.0
 79
     0
146
0.0
  0
ENDTAB
  0
TABLE
  2
LTYPE
  5
5
330
0
100
AcDbSymbolTable
 70
     6
  0
LTYPE
  5
14
330
5
100
AcDbSymbolTableRecord
100
AcDbLinetypeTableRecord
  2
ByBlock
 70
     0
  3

 72
    65
 73
     0
 40
0.0
  0
LTYPE
  5
15
330
5
100
AcDbSymbolTableRecord
100
AcDbLinetypeTableRecord
  2
ByLayer
 70
     0
  3

 72
    65
 73
     0
 40
0.0
  0
LTYPE
  5
16
330
5
100
AcDbSymbolTableRecord
100
AcDbLinetypeTableRecord
  2
Continuous
 70
     0
  3
Solid line
 72
    65
 73
     0
 40
0.0
  0
LTYPE
  5
6E
330
5
100
AcDbSymbolTableRecord
100
AcDbLinetypeTableRecord
  2
HIDDEN
 70
     0
  3
Hidden __ __ __ __ __ __ __ __ __ __ __ __ __ __
 72
    65
 73
     2
 40
1.905
 49
1.27
 74
     0
 49
-0.635
 74
     0
  0
LTYPE
  5
6F
330
5
100
AcDbSymbolTableRecord
100
AcDbLinetypeTableRecord
  2
PHANTOM
 70
     0
  3
Phantom ______  __  __  ______  __  __  ______
 72
    65
 73
     6
 40
12.7
 49
6.35
 74
     0
 49
-1.27
 74
     0
 49
1.27
 74
     0
 49
-1.27
 74
     0
 49
1.27
 74
     0
 49
-1.27
 74
     0
  0
LTYPE
  5
70
330
5
100
AcDbSymbolTableRecord
100
AcDbLinetypeTableRecord
  2
CENTER
 70
     0
  3
Center ____ _ ____ _ ____ _ ____ _ ____ _ ____
 72
    65
 73
     4
 40
10.16
 49
6.35
 74
     0
 49
-1.27
 74
     0
 49
1.27
 74
     0
 49
-1.27
 74
     0
  0
LTYPE
  5
71
330
5
100
AcDbSymbolTableRecord
100
AcDbLinetypeTableRecord
  2
CENTERX2
 70
     0
  3
Center (2x) ________  __  ________  __  _____
 72
    65
 73
     4
 40
20.32
 49
12.7
 74
     0
 49
-2.54
 74
     0
 49
2.54
 74
     0
 49
-2.54
 74
     0
  0
LTYPE
  5
72
330
5
100
AcDbSymbolTableRecord
100
AcDbLinetypeTableRecord
  2
DOT2
 70
     0
  3
Dot (.5x) ........................................
 72
    65
 73
     2
 40
0.635
 49
0.0
 74
     0
 49
-0.635
 74
     0
  0
ENDTAB
  0
TABLE
  2
LAYER
  5
2
330
0
100
AcDbSymbolTable
 70
    17
  0
LAYER
  5
10
330
2
100
AcDbSymbolTableRecord
100
AcDbLayerTableRecord
  2
0
 70
     0
 62
     7
  6
Continuous
370
    -3
390
F
  0
LAYER
  5
73
330
2
100
AcDbSymbolTableRecord
100
AcDbLayerTableRecord
  2
FORMAT
 70
     0
 62
     7
  6
Continuous
370
    -3
390
F
  0
LAYER
  5
74
330
2
100
AcDbSymbolTableRecord
100
AcDbLayerTableRecord
  2
YARDIMCI_GEOMETRI
 70
     0
 62
    -6
  6
Continuous
290
     0
370
    -3
390
F
  0
LAYER
  5
75
330
2
100
AcDbSymbolTableRecord
100
AcDbLayerTableRecord
  2
SAYFA_CERCEVESI
 70
     0
 62
     7
  6
Continuous
370
    25
390
F
  0
LAYER
  5
76
330
2
100
AcDbSymbolTableRecord
100
AcDbLayerTableRecord
  2
ANTET
 70
     0
 62
     7
  6
Continuous
370
    -3
390
F
  0
LAYER
  5
77
330
2
100
AcDbSymbolTableRecord
100
AcDbLayerTableRecord
  2
OLCU
 70
     0
 62
   150
  6
Continuous
370
    -3
390
F
  0
LAYER
  5
78
330
2
100
AcDbSymbolTableRecord
100
AcDbLayerTableRecord
  2
METIN
 70
     0
 62
    96
  6
Continuous
370
    -3
390
F
  0
LAYER
  5
79
330
2
100
AcDbSymbolTableRecord
100
AcDbLayerTableRecord
  2
BALON
 70
     0
 62
     5
  6
Continuous
370
    -3
390
F
  0
LAYER
  5
7A
330
2
100
AcDbSymbolTableRecord
100
AcDbLayerTableRecord
  2
VURGU
 70
     0
 62
     7
  6
Continuous
370
    -3
390
F
  0
LAYER
  5
7B
330
2
100
AcDbSymbolTableRecord
100
AcDbLayerTableRecord
  2
SILIK
 70
     0
 62
     7
  6
Continuous
370
    -3
390
F
  0
LAYER
  5
7C
330
2
100
AcDbSymbolTableRecord
100
AcDbLayerTableRecord
  2
MODEL
 70
     0
 62
     7
  6
Continuous
370
    -3
390
F
  0
LAYER
  5
7D
330
2
100
AcDbSymbolTableRecord
100
AcDbLayerTableRecord
  2
DETAYLANDıRMA
 70
     0
 62
   190
  6
Continuous
370
    -3
390
F
  0
LAYER
  5
7E
330
2
100
AcDbSymbolTableRecord
100
AcDbLayerTableRecord
  2
TOLERANS
 70
     0
 62
   230
  6
Continuous
370
    -3
390
F
  0
LAYER
  5
7F
330
2
100
AcDbSymbolTableRecord
100
AcDbLayerTableRecord
  2
MERKEZ_CIZGILERI
 70
     0
 62
    30
  6
Continuous
370
    -3
390
F
  0
LAYER
  5
80
330
2
100
AcDbSymbolTableRecord
100
AcDbLayerTableRecord
  2
KESIT-DETAY_CIZGILERI
 70
     0
 62
     7
  6
Continuous
370
    -3
390
F
  0
LAYER
  5
81
330
2
100
AcDbSymbolTableRecord
100
AcDbLayerTableRecord
  2
\U+041E\U+0421\U+0415\U+0412\U+042B\U+0415
 70
     0
 62
     7
  6
Continuous
370
    -3
390
F
  0
LAYER
  5
82
330
2
100
AcDbSymbolTableRecord
100
AcDbLayerTableRecord
  2
\U+0412\U+041E\U+0414\U+042F\U+041D\U+042B\U+0415_\U+0417\U+041D\U+0410\U+041A\U+0418
 70
     0
 62
    11
  6
Continuous
370
    -3
390
F
  0
ENDTAB
  0
TABLE
  2
STYLE
  5
3
330
0
100
AcDbSymbolTable
 70
     1
  0
STYLE
  5
11
330
3
100
AcDbSymbolTableRecord
100
AcDbTextStyleTableRecord
  2
Standard
 70
     0
 40
0.0
 41
1.0
 50
0.0
 71
     0
 42
3.5
  3
txt
  4

  0
ENDTAB
  0
TABLE
  2
VIEW
  5
6
330
0
100
AcDbSymbolTable
 70
     0
  0
ENDTAB
  0
TABLE
  2
UCS
  5
7
330
0
100
AcDbSymbolTable
 70
     0
  0
ENDTAB
  0
TABLE
  2
APPID
  5
9
330
0
100
AcDbSymbolTable
 70
     1
  0
APPID
  5
12
330
9
100
AcDbSymbolTableRecord
100
AcDbRegAppTableRecord
  2
ACAD
 70
     0
  0
ENDTAB
  0
TABLE
  2
DIMSTYLE
  5
A
330
0
100
AcDbSymbolTable
 70
     1
100
AcDbDimStyleTable
  0
DIMSTYLE
105
27
330
A
100
AcDbSymbolTableRecord
100
AcDbDimStyleTableRecord
  2
ISO-25
 70
     0
 41
2.5
 42
0.625
 43
3.75
 44
1.25
 73
     0
 74
     0
 77
     1
 78
     8
140
2.5
141
2.5
143
0.0393700787
147
0.625
171
     3
172
     1
178
     0
271
     2
272
     2
274
     3
278
    44
283
     0
284
     8
340
11
  0
ENDTAB
  0
TABLE
  2
BLOCK_RECORD
  5
1
330
0
100
AcDbSymbolTable
 70
     5
  0
BLOCK_RECORD
  5
1F
330
1
100
AcDbSymbolTableRecord
100
AcDbBlockTableRecord
  2
*Model_Space
340
22
  0
BLOCK_RECORD
  5
1B
330
1
100
AcDbSymbolTableRecord
100
AcDbBlockTableRecord
  2
*Paper_Space
340
1E
  0
BLOCK_RECORD
  5
23
330
1
100
AcDbSymbolTableRecord
100
AcDbBlockTableRecord
  2
*Paper_Space0
340
26
  0
BLOCK_RECORD
  5
97
330
1
100
AcDbSymbolTableRecord
100
AcDbBlockTableRecord
  2
SW_CENTERMARKSYMBOL_0
340
0
102
{BLKREFS
331
A2
102
}
  0
BLOCK_RECORD
  5
AC
330
1
100
AcDbSymbolTableRecord
100
AcDbBlockTableRecord
  2
SW_CENTERMARKSYMBOL_1
340
0
102
{BLKREFS
331
B7
102
}
  0
BLOCK_RECORD
  5
BF
330
1
100
AcDbSymbolTableRecord
100
AcDbBlockTableRecord
  2
SW_CENTERMARKSYMBOL_2
340
0
102
{BLKREFS
331
CA
102
}
  0
BLOCK_RECORD
  5
D2
330
1
100
AcDbSymbolTableRecord
100
AcDbBlockTableRecord
  2
SW_CENTERMARKSYMBOL_3
340
0
102
{BLKREFS
331
DD
102
}
  0
ENDTAB
  0
ENDSEC
  0
SECTION
  2
BLOCKS
  0
BLOCK
  5
20
330
1F
100
AcDbEntity
  8
0
100
AcDbBlockBegin
  2
*Model_Space
 70
     0
 10
0.0
 20
0.0
 30
0.0
  3
*Model_Space
  1

  0
ENDBLK
  5
21
330
1F
100
AcDbEntity
  8
0
100
AcDbBlockEnd
  0
BLOCK
  5
1C
330
1B
100
AcDbEntity
 67
     1
  8
0
100
AcDbBlockBegin
  2
*Paper_Space
 70
     0
 10
0.0
 20
0.0
 30
0.0
  3
*Paper_Space
  1

  0
ENDBLK
  5
1D
330
1B
100
AcDbEntity
 67
     1
  8
0
100
AcDbBlockEnd
  0
BLOCK
  5
24
330
23
100
AcDbEntity
  8
0
100
AcDbBlockBegin
  2
*Paper_Space0
 70
     0
 10
0.0
 20
0.0
 30
0.0
  3
*Paper_Space0
  1

  0
ENDBLK
  5
25
330
23
100
AcDbEntity
  8
0
100
AcDbBlockEnd
  0
BLOCK
  5
98
330
97
100
AcDbEntity
  8
0
100
AcDbBlockBegin
  2
SW_CENTERMARKSYMBOL_0
 70
     0
 10
0.0
 20
0.0
 30
0.0
  3
SW_CENTERMARKSYMBOL_0
  1

  0
LINE
  5
9A
330
97
100
AcDbEntity
  8
FORMAT
 62
     0
100
AcDbLine
 10
0.0
 20
0.0
 30
0.0
 11
0.0
 21
2.5
 31
0.0
  0
LINE
  5
9B
330
97
100
AcDbEntity
  8
FORMAT
 62
     0
100
AcDbLine
 10
0.0
 20
0.0
 30
0.0
 11
-2.5
 21
0.0
 31
0.0
  0
LINE
  5
9C
330
97
100
AcDbEntity
  8
FORMAT
 62
     0
100
AcDbLine
 10
0.0
 20
0.0
 30
0.0
 11
0.0
 21
-2.5
 31
0.0
  0
LINE
  5
9D
330
97
100
AcDbEntity
  8
FORMAT
 62
     0
100
AcDbLine
 10
0.0
 20
0.0
 30
0.0
 11
2.5
 21
0.0
 31
0.0
  0
LINE
  5
9E
330
97
100
AcDbEntity
  8
FORMAT
 62
     0
100
AcDbLine
 10
0.0
 20
5.0
 30
0.0
 11
0.0
 21
15.0
 31
0.0
  0
LINE
  5
9F
330
97
100
AcDbEntity
  8
FORMAT
 62
     0
100
AcDbLine
 10
-5.0
 20
0.0
 30
0.0
 11
-15.0
 21
0.0
 31
0.0
  0
LINE
  5
A0
330
97
100
AcDbEntity
  8
FORMAT
 62
     0
100
AcDbLine
 10
0.0
 20
-5.0
 30
0.0
 11
0.0
 21
-15.0
 31
0.0
  0
LINE
  5
A1
330
97
100
AcDbEntity
  8
FORMAT
 62
     0
100
AcDbLine
 10
5.0
 20
0.0
 30
0.0
 11
15.0
 21
0.0
 31
0.0
  0
ENDBLK
  5
99
330
97
100
AcDbEntity
  8
0
100
AcDbBlockEnd
  0
BLOCK
  5
AD
330
AC
100
AcDbEntity
  8
0
100
AcDbBlockBegin
  2
SW_CENTERMARKSYMBOL_1
 70
     0
 10
0.0
 20
0.0
 30
0.0
  3
SW_CENTERMARKSYMBOL_1
  1

  0
LINE
  5
AF
330
AC
100
AcDbEntity
  8
FORMAT
 62
     0
100
AcDbLine
 10
0.0
 20
0.0
 30
0.0
 11
0.0
 21
2.5
 31
0.0
  0
LINE
  5
B0
330
AC
100
AcDbEntity
  8
FORMAT
 62
     0
100
AcDbLine
 10
0.0
 20
0.0
 30
0.0
 11
-2.5
 21
0.0
 31
0.0
  0
LINE
  5
B1
330
AC
100
AcDbEntity
  8
FORMAT
 62
     0
100
AcDbLine
 10
0.0
 20
0.0
 30
0.0
 11
0.0
 21
-2.5
 31
0.0
  0
LINE
  5
B2
330
AC
100
AcDbEntity
  8
FORMAT
 62
     0
100
AcDbLine
 10
0.0
 20
0.0
 30
0.0
 11
2.5
 21
0.0
 31
0.0
  0
LINE
  5
B3
330
AC
100
AcDbEntity
  8
FORMAT
 62
     0
100
AcDbLine
 10
0.0
 20
5.0
 30
0.0
 11
0.0
 21
15.0
 31
0.0
  0
LINE
  5
B4
330
AC
100
AcDbEntity
  8
FORMAT
 62
     0
100
AcDbLine
 10
-5.0
 20
0.0
 30
0.0
 11
-15.0
 21
0.0
 31
0.0
  0
LINE
  5
B5
330
AC
100
AcDbEntity
  8
FORMAT
 62
     0
100
AcDbLine
 10
0.0
 20
-5.0
 30
0.0
 11
0.0
 21
-15.0
 31
0.0
  0
LINE
  5
B6
330
AC
100
AcDbEntity
  8
FORMAT
 62
     0
100
AcDbLine
 10
5.0
 20
0.0
 30
0.0
 11
15.0
 21
0.0
 31
0.0
  0
ENDBLK
  5
AE
330
AC
100
AcDbEntity
  8
0
100
AcDbBlockEnd
  0
BLOCK
  5
C0
330
BF
100
AcDbEntity
  8
0
100
AcDbBlockBegin
  2
SW_CENTERMARKSYMBOL_2
 70
     0
 10
0.0
 20
0.0
 30
0.0
  3
SW_CENTERMARKSYMBOL_2
  1

  0
LINE
  5
C2
330
BF
100
AcDbEntity
  8
FORMAT
 62
     0
100
AcDbLine
 10
0.0
 20
0.0
 30
0.0
 11
0.0
 21
2.5
 31
0.0
  0
LINE
  5
C3
330
BF
100
AcDbEntity
  8
FORMAT
 62
     0
100
AcDbLine
 10
0.0
 20
0.0
 30
0.0
 11
-2.5
 21
0.0
 31
0.0
  0
LINE
  5
C4
330
BF
100
AcDbEntity
  8
FORMAT
 62
     0
100
AcDbLine
 10
0.0
 20
0.0
 30
0.0
 11
0.0
 21
-2.5
 31
0.0
  0
LINE
  5
C5
330
BF
100
AcDbEntity
  8
FORMAT
 62
     0
100
AcDbLine
 10
0.0
 20
0.0
 30
0.0
 11
2.5
 21
0.0
 31
0.0
  0
LINE
  5
C6
330
BF
100
AcDbEntity
  8
FORMAT
 62
     0
100
AcDbLine
 10
0.0
 20
5.0
 30
0.0
 11
0.0
 21
15.0
 31
0.0
  0
LINE
  5
C7
330
BF
100
AcDbEntity
  8
FORMAT
 62
     0
100
AcDbLine
 10
-5.0
 20
0.0
 30
0.0
 11
-15.0
 21
0.0
 31
0.0
  0
LINE
  5
C8
330
BF
100
AcDbEntity
  8
FORMAT
 62
     0
100
AcDbLine
 10
0.0
 20
-5.0
 30
0.0
 11
0.0
 21
-15.0
 31
0.0
  0
LINE
  5
C9
330
BF
100
AcDbEntity
  8
FORMAT
 62
     0
100
AcDbLine
 10
5.0
 20
0.0
 30
0.0
 11
15.0
 21
0.0
 31
0.0
  0
ENDBLK
  5
C1
330
BF
100
AcDbEntity
  8
0
100
AcDbBlockEnd
  0
BLOCK
  5
D3
330
D2
100
AcDbEntity
  8
0
100
AcDbBlockBegin
  2
SW_CENTERMARKSYMBOL_3
 70
     0
 10
0.0
 20
0.0
 30
0.0
  3
SW_CENTERMARKSYMBOL_3
  1

  0
LINE
  5
D5
330
D2
100
AcDbEntity
  8
FORMAT
 62
     0
100
AcDbLine
 10
0.0
 20
0.0
 30
0.0
 11
0.0
 21
2.5
 31
0.0
  0
LINE
  5
D6
330
D2
100
AcDbEntity
  8
FORMAT
 62
     0
100
AcDbLine
 10
0.0
 20
0.0
 30
0.0
 11
-2.5
 21
0.0
 31
0.0
  0
LINE
  5
D7
330
D2
100
AcDbEntity
  8
FORMAT
 62
     0
100
AcDbLine
 10
0.0
 20
0.0
 30
0.0
 11
0.0
 21
-2.5
 31
0.0
  0
LINE
  5
D8
330
D2
100
AcDbEntity
  8
FORMAT
 62
     0
100
AcDbLine
 10
0.0
 20
0.0
 30
0.0
 11
2.5
 21
0.0
 31
0.0
  0
LINE
  5
D9
330
D2
100
AcDbEntity
  8
FORMAT
 62
     0
100
AcDbLine
 10
0.0
 20
5.0
 30
0.0
 11
0.0
 21
15.0
 31
0.0
  0
LINE
  5
DA
330
D2
100
AcDbEntity
  8
FORMAT
 62
     0
100
AcDbLine
 10
-5.0
 20
0.0
 30
0.0
 11
-15.0
 21
0.0
 31
0.0
  0
LINE
  5
DB
330
D2
100
AcDbEntity
  8
FORMAT
 62
     0
100
AcDbLine
 10
0.0
 20
-5.0
 30
0.0
 11
0.0
 21
-15.0
 31
0.0
  0
LINE
  5
DC
330
D2
100
AcDbEntity
  8
FORMAT
 62
     0
100
AcDbLine
 10
5.0
 20
0.0
 30
0.0
 11
15.0
 21
0.0
 31
0.0
  0
ENDBLK
  5
D4
330
D2
100
AcDbEntity
  8
0
100
AcDbBlockEnd
  0
ENDSEC
  0
SECTION
  2
ENTITIES
  0
LINE
  5
83
330
1F
100
AcDbEntity
  8
0
  6
Continuous
 62
     7
370
    25
100
AcDbLine
 10
104.8381372123
 20
129.4058431394
 30
0.0
 11
104.8381372123
 21
78.9058431394
 31
0.0
  0
LINE
  5
84
330
1F
100
AcDbEntity
  8
0
  6
Continuous
 62
     7
370
    25
100
AcDbLine
 10
129.8381372123
 20
78.9058431394
 30
0.0
 11
129.8381372123
 21
129.4058431394
 31
0.0
  0
ARC
  5
85
330
1F
100
AcDbEntity
  8
0
  6
Continuous
 62
     7
370
    25
100
AcDbCircle
 10
129.8381372123
 20
129.4058431394
 30
0.0
 40
25.00000000000004
100
AcDbArc
 50
90.0
 51
180.0
  0
LINE
  5
86
330
1F
100
AcDbEntity
  8
0
  6
Continuous
 62
     7
370
    25
100
AcDbLine
 10
180.3381372123
 20
154.4058431394
 30
0.0
 11
129.8381372123
 21
154.4058431394
 31
0.0
  0
LINE
  5
87
330
1F
100
AcDbEntity
  8
0
  6
Continuous
 62
     7
370
    25
100
AcDbLine
 10
129.8381372123
 20
129.4058431394
 30
0.0
 11
180.3381372123
 21
129.4058431394
 31
0.0
  0
LINE
  5
88
330
1F
100
AcDbEntity
  8
0
  6
Continuous
 62
     7
370
    25
100
AcDbLine
 10
117.3381372123
 20
78.9058431394
 30
0.0
 11
129.8381372123
 21
78.9058431394
 31
0.0
  0
LINE
  5
89
330
1F
100
AcDbEntity
  8
0
  6
Continuous
 62
     7
370
    25
100
AcDbLine
 10
104.8381372123
 20
78.9058431394
 30
0.0
 11
117.3381372123
 21
78.9058431394
 31
0.0
  0
LINE
  5
8A
330
1F
100
AcDbEntity
  8
0
  6
Continuous
 62
     7
370
    25
100
AcDbLine
 10
180.3381372123
 20
141.9058431394
 30
0.0
 11
180.3381372123
 21
129.4058431394
 31
0.0
  0
LINE
  5
8B
330
1F
100
AcDbEntity
  8
0
  6
Continuous
 62
     7
370
    25
100
AcDbLine
 10
180.3381372123
 20
154.4058431394
 30
0.0
 11
180.3381372123
 21
141.9058431394
 31
0.0
  0
LINE
  5
8C
330
1F
100
AcDbEntity
  8
0
  6
Continuous
 62
     1
370
    25
100
AcDbLine
 10
104.8381372123
 20
129.4058431394
 30
0.0
 11
129.8381372123
 21
129.4058431394
 31
0.0
  0
LINE
  5
8D
330
1F
100
AcDbEntity
  8
0
  6
Continuous
 62
     1
370
    25
100
AcDbLine
 10
129.8381372123
 20
154.4058431394
 30
0.0
 11
129.8381372123
 21
129.4058431394
 31
0.0
  0
LINE
  5
8E
330
1F
100
AcDbEntity
  8
0
  6
Continuous
 62
     7
370
    25
100
AcDbLine
 10
47.832514112
 20
129.4058431394
 30
0.0
 11
47.832514112
 21
78.9058431394
 31
0.0
  0
LINE
  5
8F
330
1F
100
AcDbEntity
  8
0
  6
Continuous
 62
     7
370
    25
100
AcDbLine
 10
72.832514112
 20
78.9058431394
 30
0.0
 11
72.832514112
 21
129.4058431394
 31
0.0
  0
LINE
  5
90
330
1F
100
AcDbEntity
  8
0
  6
Continuous
 62
     7
370
    25
100
AcDbLine
 10
47.832514112
 20
141.9058431394
 30
0.0
 11
47.832514112
 21
129.4058431394
 31
0.0
  0
LINE
  5
91
330
1F
100
AcDbEntity
  8
0
  6
Continuous
 62
     7
370
    25
100
AcDbLine
 10
72.832514112
 20
129.4058431394
 30
0.0
 11
72.832514112
 21
141.9058431394
 31
0.0
  0
CIRCLE
  5
92
330
1F
100
AcDbEntity
  8
0
  6
Continuous
 62
     7
370
    25
100
AcDbCircle
 10
60.332514112
 20
141.9058431394
 30
0.0
 40
12.50000000000001
  0
CIRCLE
  5
93
330
1F
100
AcDbEntity
  8
0
  6
Continuous
 62
     7
370
    25
100
AcDbCircle
 10
60.332514112
 20
141.9058431394
 30
0.0
 40
9.500000000000007
  0
LINE
  5
94
330
1F
100
AcDbEntity
  8
0
  6
Continuous
 62
     7
370
    25
100
AcDbLine
 10
47.832514112
 20
78.9058431394
 30
0.0
 11
72.832514112
 21
78.9058431394
 31
0.0
  0
LINE
  5
95
330
1F
100
AcDbEntity
  8
0
  6
Continuous
 62
     1
370
    25
100
AcDbLine
 10
60.332514112
 20
129.4058431394
 30
0.0
 11
72.832514112
 21
129.4058431394
 31
0.0
  0
LINE
  5
96
330
1F
100
AcDbEntity
  8
0
  6
Continuous
 62
     1
370
    25
100
AcDbLine
 10
47.832514112
 20
129.4058431394
 30
0.0
 11
60.332514112
 21
129.4058431394
 31
0.0
  0
INSERT
  5
A2
330
1F
100
AcDbEntity
  8
FORMAT
 62
     7
100
AcDbBlockReference
  2
SW_CENTERMARKSYMBOL_0
 10
60.332514112
 20
141.9058431394
 30
0.0
  0
LINE
  5
A3
330
1F
100
AcDbEntity
  8
0
  6
Continuous
 62
     7
370
    25
100
AcDbLine
 10
180.3381372123
 20
202.7927285027
 30
0.0
 11
129.8381372123
 21
202.7927285027
 31
0.0
  0
LINE
  5
A4
330
1F
100
AcDbEntity
  8
0
  6
Continuous
 62
     7
370
    25
100
AcDbLine
 10
129.8381372123
 20
177.7927285027
 30
0.0
 11
180.3381372123
 21
177.7927285027
 31
0.0
  0
LINE
  5
A5
330
1F
100
AcDbEntity
  8
0
  6
Continuous
 62
     7
370
    25
100
AcDbLine
 10
129.8381372123
 20
202.7927285027
 30
0.0
 11
117.3381372123
 21
202.7927285027
 31
0.0
  0
LINE
  5
A6
330
1F
100
AcDbEntity
  8
0
  6
Continuous
 62
     7
370
    25
100
AcDbLine
 10
117.3381372123
 20
177.7927285027
 30
0.0
 11
129.8381372123
 21
177.7927285027
 31
0.0
  0
CIRCLE
  5
A7
330
1F
100
AcDbEntity
  8
0
  6
Continuous
 62
     7
370
    25
100
AcDbCircle
 10
117.3381372123
 20
190.2927285027
 30
0.0
 40
9.5
  0
CIRCLE
  5
A8
330
1F
100
AcDbEntity
  8
0
  6
Continuous
 62
     7
370
    25
100
AcDbCircle
 10
117.3381372123
 20
190.2927285027
 30
0.0
 40
12.5
  0
LINE
  5
A9
330
1F
100
AcDbEntity
  8
0
  6
Continuous
 62
     7
370
    25
100
AcDbLine
 10
180.3381372123
 20
202.7927285027
 30
0.0
 11
180.3381372123
 21
177.7927285027
 31
0.0
  0
LINE
  5
AA
330
1F
100
AcDbEntity
  8
0
  6
Continuous
 62
     1
370
    25
100
AcDbLine
 10
129.8381372123
 20
190.2927285027
 30
0.0
 11
129.8381372123
 21
177.7927285027
 31
0.0
  0
LINE
  5
AB
330
1F
100
AcDbEntity
  8
0
  6
Continuous
 62
     1
370
    25
100
AcDbLine
 10
129.8381372123
 20
202.7927285027
 30
0.0
 11
129.8381372123
 21
190.2927285027
 31
0.0
  0
INSERT
  5
B7
330
1F
100
AcDbEntity
  8
FORMAT
 62
     7
100
AcDbBlockReference
  2
SW_CENTERMARKSYMBOL_1
 10
117.3381372123
 20
190.2927285027
 30
0.0
  0
LINE
  5
B8
330
1F
100
AcDbEntity
  8
0
  6
Continuous
 62
     7
370
    25
100
AcDbLine
 10
217.6205555761
 20
129.4058431394
 30
0.0
 11
217.6205555761
 21
78.9058431394
 31
0.0
  0
LINE
  5
B9
330
1F
100
AcDbEntity
  8
0
  6
Continuous
 62
     7
370
    25
100
AcDbLine
 10
242.6205555761
 20
78.9058431394
 30
0.0
 11
242.6205555761
 21
129.4058431394
 31
0.0
  0
LINE
  5
BA
330
1F
100
AcDbEntity
  8
0
  6
Continuous
 62
     7
370
    25
100
AcDbLine
 10
242.6205555761
 20
129.4058431394
 30
0.0
 11
242.6205555761
 21
141.9058431394
 31
0.0
  0
LINE
  5
BB
330
1F
100
AcDbEntity
  8
0
  6
Continuous
 62
     7
370
    25
100
AcDbLine
 10
217.6205555761
 20
141.9058431394
 30
0.0
 11
217.6205555761
 21
129.4058431394
 31
0.0
  0
LINE
  5
BC
330
1F
100
AcDbEntity
  8
0
  6
Continuous
 62
     7
370
    25
100
AcDbLine
 10
217.6205555761
 20
78.9058431394
 30
0.0
 11
242.6205555761
 21
78.9058431394
 31
0.0
  0
ARC
  5
BD
330
1F
100
AcDbEntity
  8
0
  6
Continuous
 62
     7
370
    25
100
AcDbCircle
 10
230.1205555761
 20
141.9058431394
 30
0.0
 40
12.50000000000003
100
AcDbArc
 50
0.0
 51
180.0
  0
LINE
  5
BE
330
1F
100
AcDbEntity
  8
0
  6
Continuous
 62
     1
370
    25
100
AcDbLine
 10
217.6205555761
 20
129.4058431394
 30
0.0
 11
242.6205555761
 21
129.4058431394
 31
0.0
  0
INSERT
  5
CA
330
1F
100
AcDbEntity
  8
FORMAT
 62
     7
100
AcDbBlockReference
  2
SW_CENTERMARKSYMBOL_2
 10
230.1205555761
 20
141.9058431394
 30
0.0
  0
LINE
  5
CB
330
1F
100
AcDbEntity
  8
0
  6
Continuous
 62
     7
370
    25
100
AcDbLine
 10
117.3381372123
 20
18.7349336549
 30
0.0
 11
129.8381372123
 21
18.7349336549
 31
0.0
  0
LINE
  5
CC
330
1F
100
AcDbEntity
  8
0
  6
Continuous
 62
     7
370
    25
100
AcDbLine
 10
129.8381372123
 20
43.7349336549
 30
0.0
 11
117.3381372123
 21
43.7349336549
 31
0.0
  0
LINE
  5
CD
330
1F
100
AcDbEntity
  8
0
  6
Continuous
 62
     7
370
    25
100
AcDbLine
 10
180.3381372123
 20
43.7349336549
 30
0.0
 11
129.8381372123
 21
43.7349336549
 31
0.0
  0
LINE
  5
CE
330
1F
100
AcDbEntity
  8
0
  6
Continuous
 62
     7
370
    25
100
AcDbLine
 10
129.8381372123
 20
18.7349336549
 30
0.0
 11
180.3381372123
 21
18.7349336549
 31
0.0
  0
ARC
  5
CF
330
1F
100
AcDbEntity
  8
0
  6
Continuous
 62
     7
370
    25
100
AcDbCircle
 10
117.3381372123
 20
31.2349336549
 30
0.0
 40
12.50000000000001
100
AcDbArc
 50
90.0
 51
270.0
  0
LINE
  5
D0
330
1F
100
AcDbEntity
  8
0
  6
Continuous
 62
     7
370
    25
100
AcDbLine
 10
180.3381372123
 20
43.7349336549
 30
0.0
 11
180.3381372123
 21
18.7349336549
 31
0.0
  0
LINE
  5
D1
330
1F
100
AcDbEntity
  8
0
  6
Continuous
 62
     1
370
    25
100
AcDbLine
 10
129.8381372123
 20
43.7349336549
 30
0.0
 11
129.8381372123
 21
18.7349336549
 31
0.0
  0
INSERT
  5
DD
330
1F
100
AcDbEntity
  8
FORMAT
 62
     7
100
AcDbBlockReference
  2
SW_CENTERMARKSYMBOL_3
 10
117.3381372123
 20
31.2349336549
 30
0.0
  0
LINE
  5
DE
330
1F
100
AcDbEntity
  8
0
  6
Continuous
 62
     7
370
    25
100
AcDbLine
 10
255.1670002701
 20
63.1851799741
 30
0.0
 11
219.4581078202
 21
42.5708751506
 31
0.0
  0
LINE
  5
DF
330
1F
100
AcDbEntity
  8
0
  6
Continuous
 62
     7
370
    25
100
AcDbLine
 10
231.9570919782
 20
20.919653591
 30
0.0
 11
267.6659844281
 21
41.5339584146
 31
0.0
  0
LINE
  5
E0
330
1F
100
AcDbEntity
  8
0
  6
Continuous
 62
     7
370
    25
100
AcDbLine
 10
204.3687651344
 20
16.4359535233
 30
0.0
 11
204.3687651344
 21
-24.7993574769
 31
0.0
  0
LINE
  5
E1
330
1F
100
AcDbEntity
  8
0
  6
Continuous
 62
     7
370
    25
100
AcDbLine
 10
229.3687651344
 20
-24.7993574769
 30
0.0
 11
229.3687651344
 21
16.4359535233
 31
0.0
  0
SPLINE
  5
E2
330
1F
100
AcDbEntity
  8
0
  6
Continuous
 62
     7
370
    25
100
AcDbSpline
210
0.0
220
0.0
230
1.0
 70
     8
 71
     3
 72
    32
 73
    28
 74
     0
 42
0.00000001
 43
0.00000001
 40
0.0
 40
0.0
 40
0.0
 40
0.0
 40
0.0265377708494695
 40
0.0672840577508682
 40
0.1081623691728033
 40
0.1492678874470889
 40
0.1904792604375991
 40
0.2316859616834813
 40
0.2728279833571833
 40
0.3138714613244586
 40
0.3548060519889837
 40
0.3956405117551391
 40
0.4363980504734691
 40
0.4771122021796697
 40
0.5178234414063075
 40
0.5585764602976956
 40
0.5994034789981127
 40
0.6403503888718105
 40
0.681462150675571
 40
0.7227790223615731
 40
0.7643329583601715
 40
0.8061429326822444
 40
0.8482091485201109
 40
0.8905065817375454
 40
0.932979108525578
 40
0.9755097105709278
 40
1.0
 40
1.0
 40
1.0
 40
1.0
 10
219.4581078202147
 20
42.57087515055539
 30
0.0
 10
219.2260433283299
 20
42.43382988935348
 30
0.0
 10
218.6376653231663
 20
42.08636433463536
 30
0.0
 10
217.7159928439302
 20
41.47785119262737
 30
0.0
 10
216.6972097623167
 20
40.73707199736315
 30
0.0
 10
215.704698738906
 20
39.94098260034666
 30
0.0
 10
214.7404067336183
 20
39.09354334547392
 30
0.0
 10
213.8080585865679
 20
38.19872843463709
 30
0.0
 10
212.9104147087786
 20
37.26071556202468
 30
0.0
 10
212.04950782534
 20
36.28311081999347
 30
0.0
 10
211.2268965710099
 20
35.26917329043592
 30
0.0
 10
210.4438237753998
 20
34.22176742480461
 30
0.0
 10
209.7013483108783
 20
33.14340356574497
 30
0.0
 10
209.0004601873499
 20
32.03628551207851
 30
0.0
 10
208.342169439977
 20
30.9023663669653
 30
0.0
 10
207.7276468207681
 20
29.74353907044578
 30
0.0
 10
207.1581828186942
 20
28.56156990743211
 30
0.0
 10
206.6352201723361
 20
27.35813525064717
 30
0.0
 10
206.1603430157605
 20
26.13473316389097
 30
0.0
 10
205.7353783252537
 20
24.8928936025907
 30
0.0
 10
205.3624369574666
 20
23.63430319758309
 30
0.0
 10
205.0438852963719
 20
22.3609515072679
 30
0.0
 10
204.7824645072686
 20
21.07533153942699
 30
0.0
 10
204.580685276231
 20
19.78059075631548
 30
0.0
 10
204.4427177644006
 20
18.48119780591679
 30
0.0
 10
204.3773159487064
 20
17.36521497305399
 30
0.0
 10
204.3710535095728
 20
16.68464315485409
 30
0.0
 10
204.3687651343582
 20
16.43595352333305
 30
0.0
  0
SPLINE
  5
E3
330
1F
100
AcDbEntity
  8
0
  6
Continuous
 62
     7
370
    25
100
AcDbSpline
210
0.0
220
0.0
230
1.0
 70
     8
 71
     3
 72
    28
 73
    24
 74
     0
 42
0.00000001
 43
0.00000001
 40
0.0
 40
0.0
 40
0.0
 40
0.0
 40
0.0304370839481981
 40
0.0813550423887306
 40
0.1305423979131118
 40
0.1786706446393314
 40
0.2263064815889313
 40
0.2738950885035834
 40
0.3217465557569064
 40
0.3699751761215843
 40
0.4186789974810154
 40
0.46784773813164
 40
0.5173904350370679
 40
0.5671691221085704
 40
0.616991212277859
 40
0.6667438460146922
 40
0.7164079942661947
 40
0.766085168363657
 40
0.8160232414935908
 40
0.8665252407950059
 40
0.9180704977018571
 40
0.9712983871776856
 40
1.0
 40
1.0
 40
1.0
 40
1.0
 10
229.3689277898914
 20
16.43155706541783
 30
0.0
 10
229.3688706133621
 20
16.4303698147923
 30
0.0
 10
229.3687177866666
 20
16.42719642192947
 30
0.0
 10
229.3733618368985
 20
16.4903050696034
 30
0.0
 10
229.3903123308706
 20
16.61294106387394
 30
0.0
 10
229.4243205617001
 20
16.79255603986194
 30
0.0
 10
229.4795124447295
 20
17.02087255280396
 30
0.0
 10
229.5592632831437
 20
17.29298489216498
 30
0.0
 10
229.6657848971155
 20
17.60169098317476
 30
0.0
 10
229.7999855234081
 20
17.93892075686852
 30
0.0
 10
229.9612866480104
 20
18.29549544045163
 30
0.0
 10
230.1476023857931
 20
18.66162132364637
 30
0.0
 10
230.3551721184927
 20
19.0269448696841
 30
0.0
 10
230.5785287136987
 20
19.38091702454174
 30
0.0
 10
230.8107241415057
 20
19.71348229804
 30
0.0
 10
231.0437018202498
 20
20.01573134760618
 30
0.0
 10
231.26877880777
 20
20.28047023112129
 30
0.0
 10
231.4771061141048
 20
20.5025027188791
 30
0.0
 10
231.6595053419875
 20
20.67838270727968
 30
0.0
 10
231.8082632217843
 20
20.80744733479894
 30
0.0
 10
231.9120361423296
 20
20.88841735829746
 30
0.0
 10
231.9659120800336
 20
20.92483839699711
 30
0.0
 10
231.9618052580668
 20
20.92226264829322
 30
0.0
 10
231.9603665527077
 20
20.92136030981987
 30
0.0
  0
LWPOLYLINE
  5
E4
330
1F
100
AcDbEntity
  8
0
  6
Continuous
 62
     7
370
    25
100
AcDbPolyline
 90
       82
 70
   128
 43
0.0
 10
252.5776575843
 20
57.4621198932
 10
252.6042364804
 20
56.6558296719
 10
252.6838133203
 20
55.8237012346
 10
252.8159095193
 20
54.9707390996
 10
252.9997306354
 20
54.1020730816
 10
253.2341711469
 20
53.2229274401
 10
253.5178211008
 20
52.3385894606
 10
253.848974593
 20
51.4543776556
 10
254.2256400275
 20
50.5756097791
 10
254.6455520939
 20
49.7075708444
 10
255.1061853917
 20
48.8554813398
 10
255.604769618
 20
48.0244658319
 10
256.1383062287
 20
47.2195221457
 10
256.7035864717
 20
46.4454913073
 10
257.2972106852
 20
45.7070284291
 10
257.9156087434
 20
45.0085747139
 10
258.5550615275
 20
44.3543307444
 10
259.2117232932
 20
43.7482312209
 10
259.8816447995
 20
43.1939212972
 10
260.5607970595
 20
42.6947346584
 10
261.2450955717
 20
42.2536734718
 10
261.9304248843
 20
41.8733903311
 10
262.6126633461
 20
41.5561723039
 10
263.2877078948
 20
41.3039271769
 10
263.9514987331
 20
41.1181719818
 10
264.6000437446
 20
41.0000238722
 10
265.2294425035
 20
40.9501934048
 10
265.8359097315
 20
40.9689802659
 10
266.4157980634
 20
41.056271469
 10
266.9656199824
 20
41.2115420347
 10
267.482068795
 20
41.4338581475
 10
267.9620385171
 20
41.721882772
 10
268.4026425543
 20
42.0738836944
 10
268.8012310622
 20
42.4877439396
 10
269.1554068826
 20
42.9609745035
 10
269.4630399603
 20
43.4907293217
 10
269.722280154
 20
44.0738223865
 10
269.9315683624
 20
44.7067469075
 10
270.0896459019
 20
45.3856964022
 10
270.1955620753
 20
46.1065875884
 10
270.2486798904
 20
46.8650849418
 10
270.2486798904
 20
47.65662677
 10
270.1955620753
 20
48.4764526473
 10
270.0896459019
 20
49.3196320444
 10
269.9315683624
 20
50.1810939812
 10
269.722280154
 20
51.0556575243
 10
269.4630399603
 20
51.9380629456
 10
269.1554068826
 20
52.823003355
 10
268.8012310622
 20
53.7051566169
 10
268.4026425543
 20
54.5792173577
 10
267.9620385171
 20
55.4399288733
 10
267.482068795
 20
56.2821147433
 10
266.9656199824
 20
57.1007099629
 10
266.4157980634
 20
57.890791404
 10
265.8359097315
 20
58.6476074239
 10
265.2294425035
 20
59.366606442
 10
264.6000437446
 20
60.0434643136
 10
263.9514987331
 20
60.6741103359
 10
263.2877078948
 20
61.2547517294
 10
262.6126633461
 20
61.7818964485
 10
261.9304248843
 20
62.2523741828
 10
261.2450955717
 20
62.6633554238
 10
260.5607970595
 20
63.0123684822
 10
259.8816447995
 20
63.2973143521
 10
259.2117232932
 20
63.5164793357
 10
258.5550615275
 20
63.6685453489
 10
257.9156087434
 20
63.7525978488
 10
257.2972106852
 20
63.7681313339
 10
256.7035864717
 20
63.7150523839
 10
256.1383062286
 20
63.5936802218
 10
255.604769618
 20
63.4047447942
 10
255.1061853917
 20
63.1493823809
 10
254.6455520939
 20
62.8291287615
 10
254.2256400275
 20
62.445909979
 10
253.848974593
 20
62.0020307562
 10
253.5178211008
 20
61.5001606349
 10
253.2341711469
 20
60.9433179213
 10
252.9997306354
 20
60.3348515328
 10
252.8159095193
 20
59.6784208579
 10
252.6838133203
 20
58.9779737479
 10
252.6042364804
 20
58.2377227742
 10
252.5776575843
 20
57.4621198932
  0
LWPOLYLINE
  5
E5
330
1F
100
AcDbEntity
  8
0
  6
Continuous
 62
     7
370
    25
100
AcDbPolyline
 90
       71
 70
   128
 43
0.0
 10
254.6989779278
 20
56.2375077255
 10
254.726020666
 20
56.9172407487
 10
254.8069311482
 20
57.5602780804
 10
254.9410579308
 20
58.1614423622
 10
255.1273211039
 20
58.7158933726
 10
255.3642209859
 20
59.2191669983
 10
255.6498501982
 20
59.6672111757
 10
255.9819090223
 20
60.0564185168
 10
256.357723916
 20
60.3836553528
 10
256.7742690385
 20
60.6462869652
 10
257.2281906136
 20
60.8421987985
 10
257.7158339316
 20
60.969813486
 10
258.2332727752
 20
61.0281035492
 10
258.7763410311
 20
61.0165996708
 10
259.340666233
 20
60.9353944733
 10
259.9217047662
 20
60.7851417731
 10
260.5147784502
 20
60.5670513166
 10
261.1151122042
 20
60.28287904
 10
261.717872494
 20
59.9349129314
 10
262.3182062481
 20
59.5259546093
 10
262.911279932
 20
59.0592967655
 10
263.4923184652
 20
58.5386966547
 10
264.0566436672
 20
57.9683458429
 10
264.5997119231
 20
57.3528364594
 10
265.1171507667
 20
56.6971242239
 10
265.6047940846
 20
56.0064885457
 10
266.0587156597
 20
55.2864900173
 10
266.4752607822
 20
54.5429256434
 10
266.8510756759
 20
53.7817821671
 10
267.1831345001
 20
53.0091878683
 10
267.4687637124
 20
52.2313632218
 10
267.7056635943
 20
51.4545708145
 10
267.8919267674
 20
50.685064922
 10
268.02605355
 20
49.9290411533
 10
268.1069640322
 20
49.1925865672
 10
268.1340067704
 20
48.4816306632
 10
268.1069640322
 20
47.8018976399
 10
268.02605355
 20
47.1588603082
 10
267.8919267674
 20
46.5576960265
 10
267.7056635943
 20
46.003245016
 10
267.4687637124
 20
45.4999713904
 10
267.1831345001
 20
45.0519272129
 10
266.8510756759
 20
44.6627198718
 10
266.4752607822
 20
44.3354830358
 10
266.0587156597
 20
44.0728514235
 10
265.6047940846
 20
43.8769395901
 10
265.1171507667
 20
43.7493249026
 10
264.5997119231
 20
43.6910348394
 10
264.0566436672
 20
43.7025387178
 10
263.4923184652
 20
43.7837439154
 10
262.911279932
 20
43.9339966156
 10
262.3182062481
 20
44.152087072
 10
261.717872494
 20
44.4362593486
 10
261.1151122042
 20
44.7842254572
 10
260.5147784502
 20
45.1931837794
 10
259.9217047662
 20
45.6598416231
 10
259.340666233
 20
46.1804417339
 10
258.7763410311
 20
46.7507925457
 10
258.2332727752
 20
47.3663019292
 10
257.7158339316
 20
48.0220141648
 10
257.2281906136
 20
48.7126498429
 10
256.7742690385
 20
49.4326483714
 10
256.357723916
 20
50.1762127453
 10
255.9819090223
 20
50.9373562215
 10
255.6498501982
 20
51.7099505204
 10
255.3642209859
 20
52.4877751668
 10
255.1273211039
 20
53.2645675741
 10
254.9410579308
 20
54.0340734666
 10
254.8069311482
 20
54.7900972353
 10
254.726020666
 20
55.5265518214
 10
254.6989779278
 20
56.2375077255
  0
LWPOLYLINE
  5
E6
330
1F
100
AcDbEntity
  8
0
  6
Continuous
 62
     7
370
    25
100
AcDbPolyline
 90
       82
 70
   128
 43
0.0
 10
208.0299303695
 20
-19.696806778
 10
208.7414519675
 20
-19.3167414429
 10
209.5018521832
 20
-18.9696492057
 10
210.3065578802
 20
-18.65761752
 10
211.1507294637
 20
-18.3825229811
 10
212.0292899866
 20
-18.1460200399
 10
212.9369556825
 20
-17.9495310529
 10
213.868267743
 20
-17.7942377279
 10
214.8176251479
 20
-17.6810740174
 10
215.77931835
 20
-17.6107205012
 10
216.7475636133
 20
-17.5836002936
 10
217.7165377968
 20
-17.5998764988
 10
218.6804133757
 20
-17.6594512297
 10
219.6333934889
 20
-17.7619661968
 10
220.569746802
 20
-17.9068048632
 10
221.4838419758
 20
-18.093096152
 10
222.3701815344
 20
-18.3197196855
 10
223.2234349275
 20
-18.5853125231
 10
224.0384705887
 20
-18.8882773582
 10
224.8103867978
 20
-19.2267921246
 10
225.5345411597
 20
-19.5988209548
 10
226.2065785249
 20
-20.0021264236
 10
226.8224571816
 20
-20.4342830044
 10
227.3784731632
 20
-20.8926916566
 10
227.8712825241
 20
-21.3745954568
 10
228.2979214508
 20
-21.8770961788
 10
228.6558240866
 20
-22.397171724
 10
228.942837963
 20
-22.931694297
 10
229.1572369446
 20
-23.4774492161
 10
229.2977316109
 20
-24.0311542471
 10
229.3634770104
 20
-24.5894793426
 10
229.3540777424
 20
-25.14906667
 10
229.2695903354
 20
-25.7065508051
 10
229.1105229064
 20
-26.2585789728
 10
228.8778321058
 20
-26.8018312108
 10
228.5729173634
 20
-27.333040336
 10
228.1976124723
 20
-27.8490115945
 10
227.7541745603
 20
-28.3466418742
 10
227.2452705152
 20
-28.8229383682
 10
226.6739609459
 20
-29.2750365733
 10
226.0436817751
 20
-29.7002175176
 10
225.3582235762
 20
-30.095924113
 10
224.6217087752
 20
-30.4597765335
 10
223.838566859
 20
-30.7895865277
 10
223.0135077351
 20
-31.0833705795
 10
222.1514934061
 20
-31.3393618372
 10
221.2577081278
 20
-31.5560207391
 10
220.3375272298
 20
-31.7320442731
 10
219.3964847885
 20
-31.866373813
 10
218.4402403438
 20
-31.9582014852
 10
217.4745448622
 20
-32.0069750271
 10
216.5052061501
 20
-32.012401109
 10
215.5380539245
 20
-31.9744470977
 10
214.5789047526
 20
-31.8933412533
 10
213.6335270706
 20
-31.7695713557
 10
212.7076064909
 20
-31.6038817717
 10
211.8067116089
 20
-31.3972689779
 10
210.9362605125
 20
-31.150975568
 10
210.1014881969
 20
-30.8664827796
 10
209.3074150811
 20
-30.5455015857
 10
208.5588168142
 20
-30.189962405
 10
207.8601955543
 20
-29.802003492
 10
207.2157528918
 20
-29.3839580772
 10
206.6293645807
 20
-28.938340335
 10
206.1045572295
 20
-28.4678302628
 10
205.6444870911
 20
-27.9752575637
 10
205.2519210815
 20
-27.4635846278
 10
204.929220139
 20
-26.9358887163
 10
204.678325025
 20
-26.3953434545
 10
204.5007446521
 20
-25.8451997452
 10
204.3975470097
 20
-25.2887662175
 10
204.3693527405
 20
-24.7293893281
 10
204.4163314082
 20
-24.1704332353
 10
204.5382004775
 20
-23.6152595669
 10
204.7342270136
 20
-23.0672072027
 10
205.0032320897
 20
-22.5295721941
 10
205.3435978777
 20
-22.0055879412
 10
205.7532773777
 20
-21.498405747
 10
206.2298067289
 20
-21.0110758649
 10
206.7703200278
 20
-20.5465291542
 10
207.3715665638
 20
-20.1075594534
 10
208.0299303695
 20
-19.696806778
  0
LWPOLYLINE
  5
E7
330
1F
100
AcDbEntity
  8
0
  6
Continuous
 62
     7
370
    25
100
AcDbPolyline
 90
       71
 70
   128
 43
0.0
 10
210.1512507131
 20
-20.9214189457
 10
209.576140101
 20
-21.2846461161
 10
209.0597454176
 20
-21.6761716757
 10
208.6062243694
 20
-22.0928432909
 10
208.2192284411
 20
-22.531306167
 10
207.9018734964
 20
-22.9880300587
 10
207.6567146908
 20
-23.4593376936
 10
207.4857258987
 20
-23.94143438
 10
207.3902838214
 20
-24.4304385586
 10
207.3711569024
 20
-24.9224130555
 10
207.4284991404
 20
-25.4133967812
 10
207.5618488493
 20
-25.8994366235
 10
207.7701323759
 20
-26.3766192753
 10
208.0516727434
 20
-26.8411027426
 10
208.4042031546
 20
-27.2891472775
 10
208.8248852417
 20
-27.7171454889
 10
209.31033192
 20
-28.1216513868
 10
209.8566346582
 20
-28.4994081277
 10
210.459394948
 20
-28.8473742363
 10
211.1137597179
 20
-29.1627480942
 10
211.8144604075
 20
-29.4429904964
 10
212.5558553868
 20
-29.685845096
 10
213.3319753795
 20
-29.8893565705
 10
214.1365715238
 20
-30.0518863652
 10
214.9631656844
 20
-30.1721258856
 10
215.8051026114
 20
-30.249107034
 10
216.6556035235
 20
-30.2822100034
 10
217.5078206877
 20
-30.2711682681
 10
218.3548925522
 20
-30.2160707297
 10
219.1899989927
 20
-30.1173610011
 10
220.0064162229
 20
-29.9758338351
 10
220.7975709315
 20
-29.7926287251
 10
221.557093206
 20
-29.5692207311
 10
222.2788678195
 20
-29.3074086028
 10
222.9570834672
 20
-29.0093002975
 10
223.5862795556
 20
-28.6772960081
 10
224.1613901678
 20
-28.3140688377
 10
224.6777848511
 20
-27.9225432781
 10
225.1313058993
 20
-27.5058716629
 10
225.5183018276
 20
-27.0674087868
 10
225.8356567723
 20
-26.6106848951
 10
226.0808155779
 20
-26.1393772602
 10
226.25180437
 20
-25.6572805738
 10
226.3472464473
 20
-25.1682763952
 10
226.3663733663
 20
-24.6763018983
 10
226.3090311283
 20
-24.1853181726
 10
226.1756814194
 20
-23.6992783303
 10
225.9673978929
 20
-23.2220956785
 10
225.6858575253
 20
-22.7576122112
 10
225.3333271141
 20
-22.3095676763
 10
224.912645027
 20
-21.8815694649
 10
224.4271983487
 20
-21.477063567
 10
223.8808956105
 20
-21.0993068261
 10
223.2781353207
 20
-20.7513407175
 10
222.6237705508
 20
-20.4359668596
 10
221.9230698613
 20
-20.1557244574
 10
221.1816748819
 20
-19.9128698578
 10
220.4055548892
 20
-19.7093583833
 10
219.600958745
 20
-19.5468285886
 10
218.7743645843
 20
-19.4265890681
 10
217.9324276573
 20
-19.3496079198
 10
217.0819267452
 20
-19.3165049504
 10
216.229709581
 20
-19.3275466857
 10
215.3826377165
 20
-19.3826442241
 10
214.547531276
 20
-19.4813539527
 10
213.7311140458
 20
-19.6228811187
 10
212.9399593372
 20
-19.8060862286
 10
212.1804370627
 20
-20.0294942227
 10
211.4586624493
 20
-20.291306351
 10
210.7804468015
 20
-20.5894146563
 10
210.1512507131
 20
-20.9214189457
  0
ARC
  5
E8
330
1F
100
AcDbEntity
  8
0
  6
Continuous
 62
     1
370
    25
100
AcDbCircle
 10
229.3481110382
 20
26.4375569166
 30
0.0
 40
6.10360865845385
100
AcDbArc
 50
233.3837706539
 51
295.305770917
  0
LWPOLYLINE
  5
E9
330
1F
100
AcDbEntity
  8
0
  6
Continuous
 62
     1
370
    25
100
AcDbPolyline
 90
       32
 70
   128
 43
0.0
 10
219.4581078202
 20
42.5708751506
 10
219.278464469
 20
42.4610290557
 10
218.8277610559
 20
42.124838571
 10
218.4184338032
 20
41.7262241058
 10
218.052944453
 20
41.2675829744
 10
217.7334911013
 20
40.7516734985
 10
217.4619949783
 20
40.1815984183
 10
217.2400888934
 20
39.5607862325
 10
217.069107416
 20
38.8929705786
 10
216.9500788489
 20
38.1821677786
 10
216.8837190438
 20
37.4326526841
 10
216.8704270965
 20
36.648932967
 10
216.9102829462
 20
35.83572201
 10
217.0030468952
 20
34.9979105595
 10
217.1481610502
 20
34.1405373121
 10
217.3447526775
 20
33.2687586114
 10
217.5916394521
 20
32.387817437
 10
217.8873365677
 20
31.5030118729
 10
218.2300656672
 20
30.6196632439
 10
218.6177655374
 20
29.7430841124
 10
219.0481045057
 20
28.8785463286
 10
219.5184944628
 20
28.0312493245
 10
220.0261064283
 20
27.2062888438
 10
220.567887564
 20
26.408626296
 10
221.1405795345
 20
25.6430589175
 10
221.7407381028
 20
24.9141909207
 10
222.3647538447
 20
24.2264058033
 10
223.0088738562
 20
23.5838399861
 10
223.6692243235
 20
22.9903579354
 10
224.3418338215
 20
22.4495289222
 10
225.0226571973
 20
21.9646055557
 10
225.7075998992
 20
21.5385042222
  0
ARC
  5
EA
330
1F
100
AcDbEntity
  8
0
  6
Continuous
 62
     1
370
    25
100
AcDbCircle
 10
223.2861805133
 20
15.9363465134
 30
0.0
 40
6.103068313317087
100
AcDbArc
 50
4.6955792933
 51
66.6245616644
  0
LWPOLYLINE
  5
EB
330
1F
100
AcDbEntity
  8
0
  6
Continuous
 62
     1
370
    25
100
AcDbPolyline
 90
       32
 70
   128
 43
0.0
 10
204.3687651344
 20
16.4359535233
 10
204.3740532583
 20
16.6458316576
 10
204.4397986578
 20
17.2041567531
 10
204.5802933241
 20
17.7578617841
 10
204.7946923057
 20
18.3036167032
 10
205.0817061821
 20
18.8381392762
 10
205.4396088179
 20
19.3582148215
 10
205.8662477446
 20
19.8607155434
 10
206.3590571055
 20
20.3426193436
 10
206.9150730871
 20
20.8010279959
 10
207.5309517438
 20
21.2331845766
 10
208.2029891091
 20
21.6364900454
 10
208.927143471
 20
22.0085188756
 10
209.69905968
 20
22.3470336421
 10
210.5140953412
 20
22.6499984772
 10
211.3673487343
 20
22.9155913148
 10
212.2536882929
 20
23.1422148482
 10
213.1677834667
 20
23.328506137
 10
214.1041367798
 20
23.4733448034
 10
215.057116893
 20
23.5758597706
 10
216.020992472
 20
23.6354345014
 10
216.9899666554
 20
23.6517107066
 10
217.9582119187
 20
23.624590499
 10
218.9199051208
 20
23.5542369828
 10
219.8692625257
 20
23.4410732723
 10
220.8005745863
 20
23.2857799474
 10
221.7082402821
 20
23.0892909603
 10
222.586800805
 20
22.8527880191
 10
223.4309723885
 20
22.5776934802
 10
224.2356780855
 20
22.2656617945
 10
224.9960783012
 20
21.9185695573
 10
225.7075998992
 20
21.5385042222
  0
ENDSEC
  0
SECTION
  2
OBJECTS
  0
DICTIONARY
  5
C
330
0
100
AcDbDictionary
281
     1
  3
ACAD_GROUP
350
D
  3
ACAD_LAYOUT
350
1A
  3
ACAD_MLINESTYLE
350
17
  3
ACAD_PLOTSETTINGS
350
19
  3
ACAD_PLOTSTYLENAME
350
E
  3
ACAD_SCALELIST
350
47
  3
DWGPROPS
350
EC
  0
DICTIONARY
  5
D
102
{ACAD_REACTORS
330
C
102
}
330
C
100
AcDbDictionary
281
     1
  0
DICTIONARY
  5
1A
102
{ACAD_REACTORS
330
C
102
}
330
C
100
AcDbDictionary
281
     1
  3
Layout1
350
1E
  3
Layout2
350
26
  3
Model
350
22
  0
DICTIONARY
  5
17
102
{ACAD_REACTORS
330
C
102
}
330
C
100
AcDbDictionary
281
     1
  3
Standard
350
18
  0
DICTIONARY
  5
19
102
{ACAD_REACTORS
330
C
102
}
330
C
100
AcDbDictionary
281
     1
  0
ACDBDICTIONARYWDFLT
  5
E
102
{ACAD_REACTORS
330
C
102
}
330
C
100
AcDbDictionary
281
     1
  3
Normal
350
F
100
AcDbDictionaryWithDefault
340
F
  0
DICTIONARY
  5
47
102
{ACAD_REACTORS
330
C
102
}
330
C
100
AcDbDictionary
281
     1
  3
A0
350
48
  3
A1
350
49
  3
A2
350
4A
  3
A3
350
4B
  3
A4
350
4C
  3
A5
350
4D
  3
A6
350
4E
  3
A7
350
4F
  3
A8
350
50
  3
A9
350
51
  3
B0
350
52
  3
B1
350
53
  3
B2
350
54
  3
B3
350
55
  3
B4
350
56
  3
B5
350
57
  3
B6
350
58
  3
B7
350
59
  3
B8
350
5A
  3
B9
350
5B
  3
C0
350
5C
  3
C1
350
5D
  3
C2
350
5E
  3
C3
350
5F
  3
C4
350
60
  3
C5
350
61
  3
C6
350
62
  3
C7
350
63
  3
C8
350
64
  3
C9
350
65
  3
D0
350
66
  3
D1
350
67
  3
D2
350
68
  0
XRECORD
  5
EC
102
{ACAD_REACTORS
330
C
102
}
330
C
100
AcDbXrecord
280
     1
  1
DWGPROPS COOKIE
  2

  3

  4

  6

  7

  8
b.kav
  9

300
=
301
=
302
=
303
=
304
=
305
=
306
=
307
=
308
=
309
=
 40
0.0
 41
2459935.574274803
 42
2459935.574274988
  1

 90
        0
  0
LAYOUT
  5
1E
102
{ACAD_REACTORS
330
1A
102
}
330
1A
100
AcDbPlotSettings
  1

  2
none_device
  4

  6

 40
0.0
 41
0.0
 42
0.0
 43
0.0
 44
0.0
 45
0.0
 46
0.0
 47
0.0
 48
0.0
 49
0.0
140
0.0
141
0.0
142
1.0
143
1.0
 70
   688
 72
     1
 73
     0
 74
     5
  7

 75
    16
147
1.0
148
0.0
149
0.0
100
AcDbLayout
  1
Layout1
 70
     1
 71
     1
 10
0.0
 20
0.0
 11
420.0
 21
297.0
 12
0.0
 22
0.0
 32
0.0
 14
1.0000000000E+20
 24
1.0000000000E+20
 34
1.0000000000E+20
 15
-1.0000000000E+20
 25
-1.0000000000E+20
 35
-1.0000000000E+20
146
0.0
 13
0.0
 23
0.0
 33
0.0
 16
1.0
 26
0.0
 36
0.0
 17
0.0
 27
1.0
 37
0.0
 76
     0
330
1B
  0
LAYOUT
  5
26
102
{ACAD_REACTORS
330
1A
102
}
330
1A
100
AcDbPlotSettings
  1

  2
none_device
  4

  6

 40
0.0
 41
0.0
 42
0.0
 43
0.0
 44
0.0
 45
0.0
 46
0.0
 47
0.0
 48
0.0
 49
0.0
140
0.0
141
0.0
142
1.0
143
1.0
 70
   688
 72
     1
 73
     0
 74
     5
  7

 75
    16
147
1.0
148
0.0
149
0.0
100
AcDbLayout
  1
Layout2
 70
     1
 71
     2
 10
0.0
 20
0.0
 11
0.0
 21
0.0
 12
0.0
 22
0.0
 32
0.0
 14
0.0
 24
0.0
 34
0.0
 15
0.0
 25
0.0
 35
0.0
146
0.0
 13
0.0
 23
0.0
 33
0.0
 16
1.0
 26
0.0
 36
0.0
 17
0.0
 27
1.0
 37
0.0
 76
     0
330
23
  0
LAYOUT
  5
22
102
{ACAD_REACTORS
330
1A
102
}
330
1A
100
AcDbPlotSettings
  1

  2
none_device
  4
Letter_(8.50_x_11.00_Inches)
  6

 40
6.35
 41
6.35
 42
6.35000508
 43
6.35000508
 44
215.9
 45
279.4
 46
0.0
 47
0.0
 48
0.0
 49
0.0
140
0.0
141
0.0
142
1.0
143
1.0
 70
  1712
 72
     1
 73
     0
 74
     0
  7

 75
     0
147
1.0
148
0.0
149
0.0
100
AcDbLayout
  1
Model
 70
     1
 71
     0
 10
0.0
 20
0.0
 11
279.4
 21
215.9
 12
0.0
 22
0.0
 32
0.0
 14
0.0
 24
0.0
 34
0.0
 15
279.4
 25
215.9
 35
0.0
146
0.0
 13
0.0
 23
0.0
 33
0.0
 16
1.0
 26
0.0
 36
0.0
 17
0.0
 27
1.0
 37
0.0
 76
     0
330
1F
331
29
  0
MLINESTYLE
  5
18
102
{ACAD_REACTORS
330
17
102
}
330
17
100
AcDbMlineStyle
  2
Standard
 70
     0
  3

 62
   256
 51
90.0
 52
90.0
 71
     2
 49
0.5
 62
   256
  6
BYLAYER
 49
-0.5
 62
   256
  6
BYLAYER
  0
ACDBPLACEHOLDER
  5
F
102
{ACAD_REACTORS
330
E
102
}
330
E
  0
SCALE
  5
48
102
{ACAD_REACTORS
330
47
102
}
330
47
100
AcDbScale
 70
     0
300
1:1
140
1.0
141
1.0
290
     1
  0
SCALE
  5
49
102
{ACAD_REACTORS
330
47
102
}
330
47
100
AcDbScale
 70
     0
300
1:2
140
1.0
141
2.0
290
     0
  0
SCALE
  5
4A
102
{ACAD_REACTORS
330
47
102
}
330
47
100
AcDbScale
 70
     0
300
1:4
140
1.0
141
4.0
290
     0
  0
SCALE
  5
4B
102
{ACAD_REACTORS
330
47
102
}
330
47
100
AcDbScale
 70
     0
300
1:5
140
1.0
141
5.0
290
     0
  0
SCALE
  5
4C
102
{ACAD_REACTORS
330
47
102
}
330
47
100
AcDbScale
 70
     0
300
1:8
140
1.0
141
8.0
290
     0
  0
SCALE
  5
4D
102
{ACAD_REACTORS
330
47
102
}
330
47
100
AcDbScale
 70
     0
300
1:10
140
1.0
141
10.0
290
     0
  0
SCALE
  5
4E
102
{ACAD_REACTORS
330
47
102
}
330
47
100
AcDbScale
 70
     0
300
1:16
140
1.0
141
16.0
290
     0
  0
SCALE
  5
4F
102
{ACAD_REACTORS
330
47
102
}
330
47
100
AcDbScale
 70
     0
300
1:20
140
1.0
141
20.0
290
     0
  0
SCALE
  5
50
102
{ACAD_REACTORS
330
47
102
}
330
47
100
AcDbScale
 70
     0
300
1:30
140
1.0
141
30.0
290
     0
  0
SCALE
  5
51
102
{ACAD_REACTORS
330
47
102
}
330
47
100
AcDbScale
 70
     0
300
1:40
140
1.0
141
40.0
290
     0
  0
SCALE
  5
52
102
{ACAD_REACTORS
330
47
102
}
330
47
100
AcDbScale
 70
     0
300
1:50
140
1.0
141
50.0
290
     0
  0
SCALE
  5
53
102
{ACAD_REACTORS
330
47
102
}
330
47
100
AcDbScale
 70
     0
300
1:100
140
1.0
141
100.0
290
     0
  0
SCALE
  5
54
102
{ACAD_REACTORS
330
47
102
}
330
47
100
AcDbScale
 70
     0
300
2:1
140
2.0
141
1.0
290
     0
  0
SCALE
  5
55
102
{ACAD_REACTORS
330
47
102
}
330
47
100
AcDbScale
 70
     0
300
4:1
140
4.0
141
1.0
290
     0
  0
SCALE
  5
56
102
{ACAD_REACTORS
330
47
102
}
330
47
100
AcDbScale
 70
     0
300
8:1
140
8.0
141
1.0
290
     0
  0
SCALE
  5
57
102
{ACAD_REACTORS
330
47
102
}
330
47
100
AcDbScale
 70
     0
300
10:1
140
10.0
141
1.0
290
     0
  0
SCALE
  5
58
102
{ACAD_REACTORS
330
47
102
}
330
47
100
AcDbScale
 70
     0
300
100:1
140
100.0
141
1.0
290
     0
  0
SCALE
  5
59
102
{ACAD_REACTORS
330
47
102
}
330
47
100
AcDbScale
 70
     0
300
1/128" = 1'-0"
140
0.0078125
141
12.0
290
     0
  0
SCALE
  5
5A
102
{ACAD_REACTORS
330
47
102
}
330
47
100
AcDbScale
 70
     0
300
1/64" = 1'-0"
140
0.015625
141
12.0
290
     0
  0
SCALE
  5
5B
102
{ACAD_REACTORS
330
47
102
}
330
47
100
AcDbScale
 70
     0
300
1/32" = 1'-0"
140
0.03125
141
12.0
290
     0
  0
SCALE
  5
5C
102
{ACAD_REACTORS
330
47
102
}
330
47
100
AcDbScale
 70
     0
300
1/16" = 1'-0"
140
0.0625
141
12.0
290
     0
  0
SCALE
  5
5D
102
{ACAD_REACTORS
330
47
102
}
330
47
100
AcDbScale
 70
     0
300
3/32" = 1'-0"
140
0.09375
141
12.0
290
     0
  0
SCALE
  5
5E
102
{ACAD_REACTORS
330
47
102
}
330
47
100
AcDbScale
 70
     0
300
1/8" = 1'-0"
140
0.125
141
12.0
290
     0
  0
SCALE
  5
5F
102
{ACAD_REACTORS
330
47
102
}
330
47
100
AcDbScale
 70
     0
300
3/16" = 1'-0"
140
0.1875
141
12.0
290
     0
  0
SCALE
  5
60
102
{ACAD_REACTORS
330
47
102
}
330
47
100
AcDbScale
 70
     0
300
1/4" = 1'-0"
140
0.25
141
12.0
290
     0
  0
SCALE
  5
61
102
{ACAD_REACTORS
330
47
102
}
330
47
100
AcDbScale
 70
     0
300
3/8" = 1'-0"
140
0.375
141
12.0
290
     0
  0
SCALE
  5
62
102
{ACAD_REACTORS
330
47
102
}
330
47
100
AcDbScale
 70
     0
300
1/2" = 1'-0"
140
0.5
141
12.0
290
     0
  0
SCALE
  5
63
102
{ACAD_REACTORS
330
47
102
}
330
47
100
AcDbScale
 70
     0
300
3/4" = 1'-0"
140
0.75
141
12.0
290
     0
  0
SCALE
  5
64
102
{ACAD_REACTORS
330
47
102
}
330
47
100
AcDbScale
 70
     0
300
1" = 1'-0"
140
1.0
141
12.0
290
     0
  0
SCALE
  5
65
102
{ACAD_REACTORS
330
47
102
}
330
47
100
AcDbScale
 70
     0
300
1-1/2" = 1'-0"
140
1.5
141
12.0
290
     0
  0
SCALE
  5
66
102
{ACAD_REACTORS
330
47
102
}
330
47
100
AcDbScale
 70
     0
300
3" = 1'-0"
140
3.0
141
12.0
290
     0
  0
SCALE
  5
67
102
{ACAD_REACTORS
330
47
102
}
330
47
100
AcDbScale
 70
     0
300
6" = 1'-0"
140
6.0
141
12.0
290
     0
  0
SCALE
  5
68
102
{ACAD_REACTORS
330
47
102
}
330
47
100
AcDbScale
 70
     0
300
1'-0" = 1'-0"
140
12.0
141
12.0
290
     0
  0
ENDSEC
  0
EOF
